Feo roa

Nampidirin ny Ra Faniry | avril 9, 2018

    Akoro

    Contenu restreint / Membres uniquement

    Hoan'ny mpikambana ihany. Midira eto na Register ahitanao azy.



     
    Ho  
    Bbmaj7 
    inontsika moa ny  
    Ab/Bb 
    andro izay mand
    Bbmaj7 
    alo
     
    R
    Bbmaj7 
    aha ny rivotra mif
    Ab/Bb 
    afy no tsy hitondra k
    Bbmaj7 
    alo
     
    Han
    Ebmaj7 
    ambatra ny nofy ho t
    Ebm6 
    onga 
     
    hasambarana
     
    Ho  
    Gm9 
    ankafizintsika 
     
    k
    Fadd11 
    a tsy hisy fitsah
    Ebmaj7 
    arana 
     
     
    Eb/F 
     
     
    Ho  
    Bbmaj7 
    inontsika moa ny amp
    Ab/Bb 
    itso raha miv
    Bbmaj7 
    azo
     
    R
    Bbmaj7 
    aha ho maina dieny iz
    Ab/Bb 
    ao ireto vonink
    Bbmaj7 
    azo 
     
     
    Cm7-Dm7 
     
    Iz
    Ebmaj7 
    ay notiavintsika ka l
    Ebm6 
    asa 
     
    namololona
     
    Ts
    Gm9 
    ara kolokolo k
    Fadd11 
     
    tsiriritin’
    Ebmaj7 
    olona 
     
     
    Eb/F 

     
    Bridge
    
    E|-------------7/8----------------------|
    B|-----------------10/11-7/8------------|
    G|----7-8-8h10---------------10-6/7-----|
    D|----------------------------------10--|
    A|--------------------------------------|
    E|--------------------------------------|
    
    

    Refrain:

     
    F
    Ebmaj7 
    a ianao no amiko iz
    Gbdim7 
    aho no aminao
     
    Is
    Gm9 
    ika no miarak
    Fadd11 
    a mozika ts
    Em7b5 
    otra 
     
    izao
     
    Fa t
    Ebmaj7 
    onony sy feo tsy mah
    Gbdim7 
    ay 
     
    misaraka
     
    Na ts
    Gm9 
    iky na tom
    Fadd11 
    any no mir
    Ebmaj7 
    araka 
     
     
    Eb/F 
     
     
    Ho  
    Bbmaj7 
    inontsika moa ny  
    Ab/Bb 
    andron’ny 
     
    mar
    Bbmaj7 
    aina
     
    R
    Bbmaj7 
    aha mitampify hatr
    Ab/Bb 
    any ny kalo izay hir
    Bbmaj7 
    aina 
     
     
    Cm7-Dm7 
     
    F
    Ebmaj7 
    a ianao no amiko iz
    Ebm6 
    aho no aminao
     
    Is
    Gm9 
    ika no miarak
    Fadd11 
    a mozika ts
    Ebmaj7 
    otra 
     
    izao
     
    
    Interlude
      C/D
    E|------------------------------------|
    B|-8-----8-7-6----------------------8-|
    G|-9-----------10-7--9---6---7--9-----|
    D|-10-------------9--10---------------|
    A|------------------------------------|
    E|-10---------------------------------|
    
        Cmaj7       Bm7       Em9   Dadd11 Cmaj7
    E|--7--------|--5-------|---------- ------|
    B|--8--------|--7-------|--7----7------5--|
    G|--9--------|--7-------|--7----7------4--|
    D|-----------|----------|--5----5------5--|
    A|-----------|----------|--7----5------3--|
    E|--8--------|--7-------|-----------------|
    
        Ebm7  Em7   Fmaj7          
    E|-------------------------|
    B|--7-----8-----10--12--13-|
    G|--6-----7-----9----------|
    D|--4-----6-----7----------|
    A|--6-----7-----8----------|
    E|-------------------------|
    
        F/C           Gadd9             Gb7sus4  A/E  Dmaj7  Dbm7
    E|------------------------------|---7--------5----------------------|
    B|------------------------------|-5-5--------5----7------5----------|
    G|------------5----------4---6-7|---6--------6----6------4----6h4p4-|
    D|------5-5h7----------7--------|---4--------7----4------2----------|
    A|----8--------------5----------|------------7----5------4----------|
    E|--8--------------3------------|-----------------------------------|
    
    

    Akoro

    Contenu restreint / Membres uniquement

    Hoan'ny mpikambana ihany. Midira eto na Register ahitanao azy.



    Refrain:

     
    F
    Dmaj7 
    a ianao no amiko iz
    Fdim7 
    aho no aminao
     
    Is
    Gbm9 
    ika no miarak
    Eadd11 
    a mozika ts
    Ebm7b5 
    otra 
     
    izao
     
    Fa t
    Dmaj7 
    onony sy feo tsy mah
    Fdim7 
    ay 
     
    misaraka
     
    M
    Gbm9 
    ahavelon’aina ny h
    Eadd11 
    ira izay hiraina  
    Ebm7b5 
    o!!
     
     
    F
    Dmaj7 
    a ianao no amiko iz
    Fdim7 
    aho no aminao
    Gbm9 
    An an an an
    Eadd11 
    An an an an
    Ebm7b5 
    ouh!!!
     
    Fa t
    A/E 
    onon–
    Abdim 
    y sy f–
    A 
    eo 
     
    m
    Abdim7 
    ampir–
    F#m 
    ay ny f
    Fdim7 
    o

    Outro
    
        F#m      E         D(#11)    E5         Asus2  
    E|------------------7--4------5-----------|-------------|
    B|-----------5---------3----3----5--3--2--|-0--2--------|
    G|------4-6--4----6----2--2------4--------|-2----2------|
    D|-----------6--6------0---------2--------|-2------2----|
    A|----4-----------------------------------|-0--------0--|
    E|--2--------0-------------------0--------|-------------|
    
    Zarao
    Gasytablature © 2018